Song name
# A B C D E F G H I J K L M N O P Q R S T U V W X Y Z

Tom Mcrae - Hidden Camera Show tab

-------------------------------------------------------------------------------
			     Hidden Camera Show - Tom McRae
-------------------------------------------------------------------------------
Tabbed by:Rohan

Tuning:Standard

Intro/Verse: (If you wont, carry a gun...)
e|------------------------0----------------------|
B|----3-----2-----2---2-----2-2/3-2--------------|
G|------4-----4-----2---2------------------------|Repeat for the verse
D|--------4-----4--------------------------------|
A|--2--------------------------------------------|
E|-----------------------------------------------|

Chorus/Other verses: (Hide from the world...)
e|-----------------------------------------------------------------|
B|----3-----3-----3---2-----2-----2---3-----3-----3---3-----3------|
G|------4-----4---------2-----2---------0-----0---------0-----0----|
D|--------4-----4---------2-----2---------0-----0---------0-----0--|
A|--2---------------4----------------------------------------------|
E|----------------------------------3---------------3--------------|

And that's pretty much it, you can start strumming part way through if you want, but I 
there's always a guitar playing these bits the whole way through. Enjoy!
Tap to rate this tab
 
# A B C D E F G H I J K L M N O P Q R S T U V W X Y Z