Guitaretab - guitar tabs
Song name
# A B C D E F G H I J K L M N O P Q R S T U V W X Y Z

Tom Morello - Until The End tab

	     Until the End- The NIghtwatchman
-------------------------------------------------------------------------------
Tabbed by: Dalen Gray
Email:evilmanfromxenu@yahoo.com
I didnít see a correct tab for this song so I decided to see if I could hear it out and 
sounded pretty good to me. Its pretty much a morph of the other 2 versions that I saw. 
you can find something that sounds better please email me. It also sounds good with a capo on 2.
Tuning:standard
Intro: Play twice
e|-0---0---0---0---0---0--3---3---3-----------------------------------|
B|--1---1---1---1---1---1--0---0---0----1-0-1p0-0---------------------|
G|---2---2-------0---0------0---0-------------------------------------|
D|--------------------------------------------------------------------|
A|-0----------3----------------------0--------------------------------|
E|------------------------3-------------------------------------------|

Bridge:
e|---------------0--0--0--0--0---0--0--0----0--0--0--3--3--3--3--3----|
B|---1-0-1p0-0----1--1--1--1--1---1--1-------1--1--1--0--0--0--0--0---|
G|-------------0---2--2--2--2--2---0--0-------2--2-----0--0--0--0--0--|
D|---------------3----------------------------------------------------|
A|-0-----------------------------3-----2----0-------------------------|
E|---------------------------------------------------3----------------|

e|------0--0----------------------------------------------------------|
B|-----0--0-----------------------------------------------------------|
G|----1--1------------------------------------------------------------|
D|---2----------------------------------------------------------------|
A|--2-----------------------------------------------------------------|
E|-0------------------------------------------------------------------|

[ Tab from: http://www.guitaretab.com/t/tom-morello/135884.html ]
Main Riff: Repeat as needed through song
     Am           C                           Am   Am          C
e|---0--------0-0-0-0--------------------------0---0---------0-0-0-0--|
B|---1--------1-1-1-1--------------------------1---1---------1-1-1-1--|
G|---2ó-0h2---0-0-0-0--------0-0-0-0-----------2---2---0h2---0-0-0-0--|
D|---2-0h2----2-2-2-2--------0-0-0-0-----0h2-0-2---2-0h2-----2-2-2-2--|
A|-0--------3-3-3-3-3-2p0-0--2-2-2-2---0h2-----0-0-0-------3-3-3-3-3--|
E|-------------------------3-3-3-3-3----------------------------------|
                                  Am           C
e|--------------------------------0---------0-0-0-0-------------------|
B|--------------------------------1---------1-1-1-1-------------------|
G|---------0-0-0-0----------------2---0h2---0-0-0-0---------0-0-0-0---|
D|---------0-0-0-0-----0h2-0------2-0h2-----2-2-2-2---------0-0-0-0---|
A|-2p0-0---2-2-2-2---0h2-----2p0--0-------3-3-3-3-3-2p0-0---2-2-2-2---|
E|-------3-3-3-3-3-0h2------------------------------------3-3-3-3-3---|

e|--------0---0--------0-0-0-0----------------------------------------|
B|--------1---1--------1-1-1-1----------------------------------------|
G|--------2---2ó-0h2---0-0-0-0----------0-----------------------------|
D|--0h2-0-2---2-0h2----2-2-2-2----------0-(12times)-------------------|
A|-0h2----0-0-0------3-3-3-3-3-2p0-0----2-----------------------------|
E|------------------------------------3-3-----------------------------|

Verse:
     Am(5x)C(5x)  (5x)   Am(5x)
e|---0-----0------------0---------------------------------------------|
B|---1-----1------------1---------------------------------------------|
G|---2-----0------0-----2---------------------------------------------|
D|---2-----2------0-----2---------------------------------------------|
A|-0-0---3-3------2---0-0---------------------------------------------|
E|--------------3-3---------------------------------------------------|
    Am(5x)   C(5x)   C(5x)   (5x)
e|---0-------0-------0------------------------------------------------|
B|---1-------1-------1------------------------------------------------|
G|---2-------0-------0-------0----------------------------------------|
D|---2-------2-------2-------0----------------------------------------|
A|-0-0-----3-3-----3-3-------2----------------------------------------|
E|-------------------------3-3----------------------------------------|
Alternate between those 2 for the verses and other than that listen to the song and hear 
hes playing.Enjoy and hope this helps out any questions email me.

| /  slide up
| \  slide down
| h  hammer-on
| p  pull-off
| ~  vibrato
| +  harmonic
| x  Mute note
===============================================================================
Related for Until The End tab