Song name
# A B C D E F G H I J K L M N O P Q R S T U V W X Y Z

Tom Morello - Face Off tab

Hey guitar players,
This is my first tab, so please rate it for me!
Tuning is flat so....(EbAbDbGbBbEb)

E/--------------------Bring it------12s18-17soff---come on!---------------/
B/------------------------------------------------------------------------/
G/------------------------------------------------------------------------/
D/---2--2----------------0------2--2-------5--7---------------------------/
A/--------0------0-----0---0---------0-----5--7---------------------------/
E/----------3-0----3-0-------0---------3-0-3--5---------------------------/



E/-----------------------------------------------------Sh$t!--------------/
B/------------------------------------------------------------------------/
G/------------------------------------------------------------------------/
D/---2--2----------------0------2--2-------7-5----------------------------/
A/--------0------0-----0---0---------0---------7-5------------------------/
E/----------3-0----3-0-------0---------3-0---------5-3-0------------------/



E/----------------------------------------quack-quack---------------------/
B/------------------------------------------------------------------------/
G/------------------------------------------------------------------------/
D/---2--2----------------0------2--2-------5--7---------------------------/
A/--------0------0-----0---0---------0-----5--7---------------------------/
E/----------3-0----3-0-------0---------3-0-3--5---------------------------/



E/-----------------------------12-----------------------------------------/
B/------------------------------------------------------------------------/
G/------------------------------------------------------------------------/
D/---2--2----------------0------------------------------------------------/
A/--------0------0-----0---0----------------------------------------------/
E/----------3-0----3-0-------0-1-1-1-1-1-1-1-1-1-1-1-1-1-1-1-1-1-1-1....../



Tap to rate this tab
 
# A B C D E F G H I J K L M N O P Q R S T U V W X Y Z