Song name
# A B C D E F G H I J K L M N O P Q R S T U V W X Y Z

Tom Morello - A-team Blastoff Suite tab

-------------------------------------------------------------------------------
		    Tom Morello - A-Team Blastoff Suite
-------------------------------------------------------------------------------
Tabbed by: MinnickMan12

http://www.youtube.com/watch?v=5J5MivyAhWc

Tuning: Eb, Ab, Db, Gb, Bb, Eb

Intro (palm muted)
e|--------------------------------------------------------------------------|
B|--------------------------------------------------------(32 times)--------|
G|--------------------------------------------------------------------------|
D|-2-2-2-2-2-2-2-2-2-2-2-2-2-2-2-2-2-2-2-2-2-2-2-2-2-2-2-2-2-2-2-2----------|
A|-2-2-2-2-2-2-2-2-2-2-2-2-2-2-2-2-2-2-2-2-2-2-2-2-2-2-2-2-2-2-2-2----------|
E|-0-0-0-0-0-0-0-0-0-0-0-0-0-0-0-0-0-0-0-0-0-0-0-0-0-0-0-0-0-0-0-0----------|

Main Riff
e|--------------------------------------------------------------------------|
B|--------------------------------------------------------------------------|
G|--------------------------------------------------------------------------|
D|----5-2-5--2-0-2-------------5-2-5--2-0-2---------------------------------|
A|-----------------5-2-5-2------------------5-2-----------------------------|
E|-0-----------------------3-0------------------3-5---(repeat)--------------|

************************************

| /   slide up
| \   slide down
| h   hammer-on
| p   pull-off
| ~   vibrato
| +   harmonic
| x   Mute note
| b   Bend
| pb  Pre-bend
| br  Bend release
| pbr Pre-bend release
| brb Bend release bend

************************************
Tap to rate this tab
 
# A B C D E F G H I J K L M N O P Q R S T U V W X Y Z