Tom Morello - A-team Blastoff Suite tab

A-team blastoff suite by Tom Morello



standard tuning:

This is really how to play blastoff suit and so easy to learn
    [do 25x]  and mute it      and then press it 
e|------------------------|------------------------|
B|------------------------|------------------------|
G|------------------------|------------------------|
D|---------7--------------|----------7-------------|
A|---------5--------------|----------5-------------|
E|------------------------|------------------------|



and repeat this till you want to repeat
e|-----------------------------------------------------|
B|-----------------------------------------------------|
G|--7-5-7--------------------7-5-7---------------------|
D|--------7-5-7---7-5--5-----------7-5-7--7-5-7-5------|
A|-------------------7---0------------------------7-0--|
E|-----------------------------------------------------|
Tap to rate this tab
 
# A B C D E F G H I J K L M N O P Q R S T U V W X Y Z