Song name
# A B C D E F G H I J K L M N O P Q R S T U V W X Y Z

Tom Odell - Another Love tab

-------------------------------------------------------------------------------
                             Tom Odell - Another Love
-------------------------------------------------------------------------------
Tabbed by: scan070
E-mail:

Tuning: stnd, capo 7th 

e|---------0--------1-0------------------------------------------------------|
B|----1--3----1--1p0-------1-3-1----0-1--------------------------------------|
G|-----2-------0----------2-2------0-0--2b-----------------------------------|
D|------2-------2--------2--------2------------------------------------------|
A|-0------0--3----------0-----0--0-----0-------------------------------------|
E|---------------------------------------------------------------------------| 2x

e|---------------------------------------------------------------------------|
B|-----1----------1----------------------------------------------------------|
G|----2--2-2-----2--2-2------------------------------------------------------|
D|---3----3-----3----3-------------------------------------------------------|
A|---------------------------------------------------------------------------|
E|-1----------1--------------------------------------------------------------|


************************************
| p   pull-off
| b   Bend
************************************
Tap to rate this tab
# A B C D E F G H I J K L M N O P Q R S T U V W X Y Z