Song name
# A B C D E F G H I J K L M N O P Q R S T U V W X Y Z

Tom Odell - Another Love tab

The right hand melody tabbed out from piano to guitar.

e|---------7---8-8--7----------------------|
b|--8--10----8--------8-8--10-7--7-7--8----|
G|--9--9--------------------------------9--|
D|-----------------------------------------|
A|-----------------------------------------|
E|-----------------------------------------|

e|---------7---8-8--7----------------------|
b|--8--10----8--------8-8--10-7--7-7--8----|
G|--------------------------------------9--|
D|-----------------------------------------|
A|-----------------------------------------|
E|-----------------------------------------|
Tap to rate this tab
 
# A B C D E F G H I J K L M N O P Q R S T U V W X Y Z