Song name
# A B C D E F G H I J K L M N O P Q R S T U V W X Y Z

Tom Petty And The Heartbreakers - American Girl tab

American Girl - Tom Petty and the Heartbreakers.
Tabbed by: Rob Freeman
Email: Rob.Freeman1@hotmail.com
Tuning: Standard


This is the outro of the song for the live version at the Grey whistle
http://www.youtube.com/watch?v=uNgt7U9QrFQ is the youtube link. 3 Minutes 28 seconds is 
where it starts.
A friend said he was looking everywhere for it and told me to put it up on here for all 
of you to see!
Enjoy
e|------------17----17-----------------------------------------------------|
B|-----16b------16b---------16----14---------15-15-15-15-15----------------|
G|-------------------------------------16----------------------------------|
D|-------------------------------------------------------------------------|
A|-------------------------------------------------------------------------|
E|-------------------------------------------------------------------------|

e|----------------------------------------------------------------------------|
B|-----7----7----7----7----7----7----7----7-----------------------------------|
G|-10b--10b--10b--10b--10b--10b--10b--10b--10b--11--9-------------------------|
D|-----------------------------------------------------12--9--12--9-----------|
A|------------------------------------------------------------------12--------|
E|----------------------------------------------------------------------------|


e|-------------------------------------------------------------------------|
B|------------------------------10-----------------------------------------|
G|--------------------------9b----9----------------------------------------|
D|-----------------9--12-------------12--12-----14b-14b-14b-14b------------|
A|---------9--12-----------------------------------------------------------|
E|----10-------------------------------------------------------------------|

e|-------------------------------------------------------------------------|
B|-------------------------------------------------------------------------|
G|----12--14--12--14--12--12-----14--16--14--16--14--14--------------------|
D|----12--12--12--12--12--12-----12--12--12--12--12--12--------------------|
A|-------------------------------------------------------------------------|
E|-------------------------------------------------------------------------|



e|-------------------------------------------------------------------------|
B|-------------------------------------------------------------------------|
G|-------------------------------------------------------------------------|
D|-----7---9---7-----------------------------------------------------------|
A|---------------10--9--7----10--9--7----5----5----------------------------|
E|-------------------------------------------------------------------------|

Thank You for viewing!!!!
Tap to rate this tab
 
# A B C D E F G H I J K L M N O P Q R S T U V W X Y Z