Song name
# A B C D E F G H I J K L M N O P Q R S T U V W X Y Z

Tom Petty And The Heartbreakers - Runnin Down A Dream tab

Intro:
                E
e-------------------|
B-------------------|
G-------------------|
D-------------------| 
A----------------h--|
E-0-7-0-6-0-5-0-3-0-| x4

Verse 1:
E 
It was a beautiful day, the sun beat down
A                         E
I had the radio on, I was drivin'

e-------------------|
B-------------------|
G-------------------|
D-------------------| 
A----------------h--|
E-0-7-0-6-0-5-0-3-0-|
E                                      A
Trees flew by, me and Del were singin' little Runaway
      E
I was flyin'

Chorus:
E    A       G      E
Yeah runnin' down a dream
E          G             A
That never would come to me
A            G      E
Workin' on a mystery, 
E              G  A
goin' wherever it leads
A       G      E
Runnin' down a dream

e-------------------|
B-------------------|
G-------------------|
D-------------------| 
A----------------h--|
E-0-7-0-6-0-5-0-3-0-|

Verse 2:
E                             
I felt so good like anything was possible
      A                            E
I hit cruise control and rubbed my eyes

e-------------------|
B-------------------|
G-------------------|
D-------------------| 
A----------------h--|
E-0-7-0-6-0-5-0-3-0-|
E                                           
The last three days the rain was un-stoppable
              A        E
It was always cold, no sunshine

Chorus:

Chorus:
E    A       G      E
Yeah runnin' down a dream
E          G             A
That never would come to me
A            G      E
Workin' on a mystery, 
E              G  A
goin' wherever it leads
A       G      E
Runnin' down a dream

e-------------------|
B-------------------|
G-------------------|
D-------------------| 
A----------------h--|
E-0-7-0-6-0-5-0-3-0-| x2 (this time)

Bridge:

G                   
e-------------------|
B-------------------|
G-------------------|
D-------------------| 
A----------------h--|
E-0-7-0-6-0-5-0-3-0-|
A
e-------------------|
B-------------------|
G-------------------|
D-------------------| 
A----------------h--|
E-0-7-0-6-0-5-0-3-0-|
E
e-------------------|
B-------------------|
G-------------------|
D-------------------| 
A----------------h--|
E-0-7-0-6-0-5-0-3-0-| (repeat bridge)

E
I rolled on as the sky grew dark
          A                       E
I put the pedal down to make some time

e-------------------|
B-------------------|
G-------------------|
D-------------------| 
A----------------h--|
E-0-7-0-6-0-5-0-3-0-|

E                                             
There's something good waitin' down this road
    A                     E
I'm pickin' up whatever's mine

(Chorus)x2

e-------------------|
B-------------------|
G-------------------|
D-------------------| 
A----------------h--|
E-0-7-0-6-0-5-0-3-0-| x3

(Bridge) xA lot of times.
That's all I got.
Tap to rate this tab
 
# A B C D E F G H I J K L M N O P Q R S T U V W X Y Z