Song name
# A B C D E F G H I J K L M N O P Q R S T U V W X Y Z

Tom Petty And The Heartbreakers - American Girl tab

The outro solo for "American Girl" by Tom Petty and the Heartbreakers

Tabbed by Luke Stirton

(made to be played in this key, with this tab:
http://tabs.ultimate-guitar.com/t/tom_petty_and_the_heartbreakers/american_girl_crd.htm)

No Capo

e----14----14-14-----14----14-14-----14----14-14-|
B-15----15--------15----15--------15----15-------|
G------------------------------------------------|
D------------------------------------------------|
A------------------------------------------------|
E------------------------------------------------|

***

e----14----14-------12---------------------------|
B-15----15----12/14----15------------------------|
G------------------------------------------------|
D------------------------------------------------|
A------------------------------------------------|
E------------------------------------------------|

***
alternate
***

e------------------------------------------------|
B------------------------------------------------|
G------------------------------------------------|
D---4---4-4----4--4-4----4---4-4-----------------|
A-5---5------5--5------5---5---------------------|
E------------------------------------------------|

***

e------------------------------------------------|
B------------------------------------------------|
G------------------------------------------------|
D---4---4-----2----------------------------------|
A-5---5---2/4---5--------------------------------|
E------------------------------------------------|
Tap to rate this tab
# A B C D E F G H I J K L M N O P Q R S T U V W X Y Z