Guitaretab - guitar tabs
Song name
# A B C D E F G H I J K L M N O P Q R S T U V W X Y Z

Tom Petty - Turn This Car Around tab

I'm giving you the first verse and the bridge (does this have a chorus?)well, I didn't 
the solo part, but the second guitar just play the verse..there are some chords that you 
to strum... I think it's easy to figure out the rest...

(INTRO)

e|--------------------|
B|----------2h3--3----|
G|----------2---------| 8x
D|--------------------|
A|--------------------|
E|----0-0-------------|
P.M......


(VERSE)

e|----------------------------------------------------------|
B|-------2h3---3--------2h3---3-------3---3-------3---3-----|
G|-------2--------------2-------------0-----------0---------|
D|----------------------------------------------------------|
A|-------------------------------2-2---------2-2------------|
E|-0-0------------0-0---------------------------------------|
P.M...            ...            ...         ...

e|--------------------------------------------------------------------|
B|---------3----3----------3----3--------2h3---3---------2h3---3------|
G|---------0h2-------------0h2-----------2---------------2------------|
D|---0-0-------------0-0----------------------------------------------|
A|--------------------------------------------------------------------|
E|----------------------------------0-0------------0-0----------------|
P.M....              ...            ...            ...

e|----------------------------------------------------------|
B|-------2h3---3--------2h3---3-------3---3-------3---3-----|
G|-------2--------------2-------------0-----------0---------|
D|----------------------------------------------------------|
A|-------------------------------2-2---------2-2------------|
E|-0-0------------0-0---------------------------------------|
P.M...            ...            ...         ...
[ Tab from: http://www.guitaretab.com/t/tom-petty/107841.html ]
e|-------------------------------------------------------------|
B|---------3----3----------3----3--------2h3---3---------2h3---|
G|---------0h2-------------0h2-----------2---------------2-----|
D|---0-0-------------0-0---------------------------------------|
A|-------------------------------------------------------------|
E|----------------------------------0-0------------0-0---------|
P.M....              ...            ...            ...


e|---3----2---------------------------------------------|
B|---3----3---------------------------2h3--3-------2h3--|
G|---0----2---------------------------2------------2----| 3x
D|---0----0---------------------------------------------|
A|---2--------------------------------------------------|
E|---3--------------------------0-0---------0-0---------|
P.M.           ...         ...
             turn this car around

(BRIDGE)

e|-------------0----0----0------------------0-----0-----0-------------------|
B|-------------0----0----0------------------0-----0-----0-------------------|
G|-------------9----7----2------------------9-----7-----2-------------------|
D|-------------9----7----2------------------9-----7-----2-------------------|
A|-------------7----5----0------------------7-----5-----0-------------------|
E|--------------------------------------------------------------------------|
   I'm going back            I'm going back

e|--4---------4-----0------0------------------------------|
B|--5---------4-----0------0-----------0-----------0------|
G|--6---------5-----2------1-------------3-----------3----|
D|--6---------6-----2------2---------4----------4---------|
A|--4---------6-----0------2------------------------------|
E|------------4------------0------2----------2------------|
  yeah  yeah                     hey  hey

e|-----------------------------------------|
B|----------0-----0------0------0----------|
G|------------3-----3------3------3--------|
D|-------4------4-----4------4------4------|
A|-----------------------------------------|
E|----2------------------------------------|
Related for Turn This Car Around tab
×
Best way to learn
"Turn This Car Around"