Song name
# A B C D E F G H I J K L M N O P Q R S T U V W X Y Z

Tom Petty - Honey Bee tab

Standard W/ Distortion

I'm not quite capable of transcribing solo's yet.  I've yet to perfect my listening skills.

Intro, Between Verses, etc:
e|--------------|--------------|--------------|--------------|
B|--------------|--------------|--------------|--------------|
G|--------------|--------------|--------------|--------------|
D|--------------|--------------|--------------|--------------|
A|-----------3~0|-----------3~~|-----------3~~|0---------0---|
E|-0-h3-3-h5----|-0-h3-3-h5----|-0-h3-3-h5----|--0-3-0-------|

Verse: 
e|------------5-|------------5-|------------5-|------------5-|
B|------------5-|------------5-|------------5-|------------5-|
G|------------2-|------------2-|------------2-|------------2-|
D|------------2-|------------2-|------------2-|------------2-|
A|------0-3-----|------0-3-----|------0-3-----|-------0------|
E|-0-h3---------|-0-h3---------|-0-h3---------|3-0-----------|

Bridge: 1 and 2
e|--------------|--------------|--------------|--------------|
B|--------------|--------------|--------------|--------------|
G|2-------------|5-------------|7-------------|--------------|
D|2-------------|5-------------|7-------------|--------------|
A|0-------------|3-------------|5-------------|--------------|
E|--------------|--------------|--------------|--------------|



| /  slide up
| \  slide down
| h  hammer-on
| p  pull-off
| ~  vibrato
| +  harmonic
| x  Mute note
===============================================================================
Tap to rate this tab
# A B C D E F G H I J K L M N O P Q R S T U V W X Y Z