Song name
# A B C D E F G H I J K L M N O P Q R S T U V W X Y Z

Tom Petty - Dont Come Around Here No More tab

"Dont Come Around Here No More" By Tom Petty

Tab by: Pat Glander
Email:thatonehippie@hotmail.com
Tuning: standard

this is my first tab ever and i noticed there wasnt the finger picking part of the song 
so i thought id figure it out. the timing is not perfect so listen to the song.

Intro:
e|----------------------------5-5----|       X2
B|-------6--3---------6-------6-6----|
G|----5------------5-----3----5-5----|
D|-----------------------------------|
A|-----------------------------------|
E|-----------------------------------|

Verses:
e|------3-----3------5-----5------7-----7------5-----5---------|
B|-------------------------------------------------------------|
G|-------------------------------------------------------------|
D|---5------5-----5------5-----5------5-----5------5-----------|
A|--5-5----5-----5-5----5-----5-5----5-----5-5----5------------|
E|-------------------------------------------------------------|

yea idk about the "i give it up" part. its just a cello playing a scale. you could put 
chords in there but i think continuing with the verse would sound better since most of 
song is finger picked.
Tap to rate this tab
# A B C D E F G H I J K L M N O P Q R S T U V W X Y Z