Song name
# A B C D E F G H I J K L M N O P Q R S T U V W X Y Z

Tom Petty - You Wreck Me tab

Tom Petty
You Wreck Me
Album: Highway companion
Tabbed by: Dj Chrispy

intro      Tonight we..   Rescue me..  If I stay..
E-2-------|--2---------|--3--------|--2--------|----------------------------|
B-3--2----|--3--2------|--3--2-----|--3--2-----|----------------------------|
G-2--2--1-|--2--2--1---|-----2--1--|--2--2--1--|----------------------------|
D----2--2-|-----2--2---|-----2--2--|-----2--2--|----------------------------|
A-------2-|--------2---|--2-----2--|--------2--|----------------------------|
E---------|------------|--3--------|-----------|----------------------------|
=Chorus=
Oh...Yeah...  You wreck me! (x4)
E-3----------|--2-------|---------------------------------------------------|
B-3-----2----|--3--2----|---------------------------------------------------|
G-------2----|--2--2--1-|---------------------------------------------------|
D-------2----|-----2--2-|---------------------------------------------------|
A-2----------|--------2-|---------------------------------------------------|
E-3----------|----------|---------------------------------------------------|
Instrumentals   (x2)                  (x2)         (x4)(Break)
E----3-----3--3--3--|------2------2--2--2--|--2-------|-------|-2-----------|
B-1--3--1--3--3--3--|------4------4--4--4--|--3--2----|-------|-3--2--------|
G-------------------|--1---4--1---4--4--4--|--2--2--1-|-------|-2--2--1-----|
D-2-----2-----------|--2---4--2---4--4--4--|-----2--2-|-------|----2--2-----|
A-3--2--3--2--2--2--|--2---2--2---2--2--2--|--------2-|-------|-------2-----|
E----3-----3--3--3--|------2------2--2--2--|----------|-------|-------------|
-(Chorus one more time)
Outtro           (x4)
E-3-----3-----------|-------------------------------------------------------|
B-2--2--2--2--------|-------------------------------------------------------|
G-3--2--3--2--1--1--|-------------------------------------------------------|
D----2-----2--2--2--|-------------------------------------------------------|
A-------------2--2--|-------------------------------------------------------|
E-------------------|-------------------------------------------------------|

And thats it! This song is awesome.

If anyone knows the Electric solo please mail to djchrispy@gmail.com
Tap to rate this tab
 
# A B C D E F G H I J K L M N O P Q R S T U V W X Y Z