Song name
# A B C D E F G H I J K L M N O P Q R S T U V W X Y Z

Tom Petty - Wont Back Down tab

  okay im a bad guitarist but i know this song and if you think its wrong suck it!

             intro and verse
   ---------------------------------------------------------|
   ---------------------------------------------------------|
   ---------------------------------------------------------|
   ---9-9-9-9-7-7-7-5-5-5-5-5-5-5-5-5-9-9-9-9-7-7-7-5-5-5-5-|
   ---7-7-7-7-5-5-5-5-5-5-5-5-5-5-5-5-7-7-7-7-5-5-5-5-5-5-5-|
   -----------------1-1-1-1-1-1-1-1-1---------------1-1-1-1-|
you can stand me up at the gates of hell but ill stand my ground
   --------------------------------------------------------------------|
   --------------------------------------------------------------------|
   --------------------------------------------------------------------|
   --9-9-9-9-7-7-7-7-5-5-5-5-7-7-7-7-[9-9-9-9-7-7-7-5-5-5-5-5-5-5]-----|
   --7-7-7-7-5-5-5-5-5-5-5-5-5-5-5-5-[7-7-7-7-5-5-5-5-5-5-5-5-5-5]-----|
   ------------------1-1-1-1------------------------1-1-1-1-1-1-1]-----|
                                     repeat 2x


             C   D       C                       D
i wont back hey baybe    there aint no easy way out
 C              D
i wont back hey I


    wont    back     down          wont         back       down
   -------------------------------------------------------------------|
   -------------------------------------------------------------------|
   -------------------------------------------------------------------|
   -9-9-9-9-7-7-7-7-5-5-5-5-5-5-5-5-9-9-9-9-9-7-7-7-7-7-7-5-5-5-5-5---|
   -7-7-7-7-5-5-5-5-5-5-5-5-5-5-5-5-7-7-7-7-7-5-5-5-5-5-5-5-5-5-5-5---|
   -----------------1-1-1-1-1-1-1-1-----------------------1-1-1-1-1---|


  solo

  -------12------------------------------------------------------|
  -------------------------------------15---------3--------------|
  -----------14--12-----------------16----16----4---4---2--0-----|
  --------------------12-9-14---17-------------------------------|
  ---------------------------------------------------------------|
  ------------------------------------------------------------3--|
                   chorus
Tap to rate this tab
# A B C D E F G H I J K L M N O P Q R S T U V W X Y Z