Song name
# A B C D E F G H I J K L M N O P Q R S T U V W X Y Z

Tom Petty - Jack tab

Tabbed by: Raymond Garza
e-mail: ray@nirofex.com

This is the tab for 'Jack' off of Tom Petty's 'Highway Companion' - a kick ass album.

Verse -

A                G
You say what you want to Jack
A                G
I'm gonna get my baby back
A            G
Trouble came right away
A                 G
Now you say she's gone to stay
D           C
Cough it up hit the street
D              C
Left without a word to meet
A       G
Ohhhhhh You don't know
A                   G
How that Girl could touch my soul

Chorus -

E-----------------------------|
B-----------------------------|
G-----------------------------|
D-----------------------------|
A--2-2-0-2-----0-2-0---0-0----|
E--------------------3--------|


E-----------------------------|
B-----------------------------|
G-----------------------------|
D-----------------------------|
A--2-2-0-2-----0-2-0----------|
E--------------------3-0-0----|

G                A
You say what you want to Jack
C                D
I'm gonna get my baby back


And thats pretty much it!
Tap to rate this tab
# A B C D E F G H I J K L M N O P Q R S T U V W X Y Z