Song name
# A B C D E F G H I J K L M N O P Q R S T U V W X Y Z

Tom Petty - Good Enough tab

My first tab, sorry if it's confusing but I feel like it's correct. If it isn't right 
free to email me about it  at jake_kd@ymail.com

/= Slide
v= Vibrato
~= Hold the note
b= Bend
b^= Bend up, then back down

e------------------/8v~-8b^-13v~-14b-13~----|
B---------/9v~-9b^--------------------------|
G--/10b^------------------------------------|
D-------------------------------------------|
A-------------------------------------------|
E-------------------------------------------|

e------------------/8v~-8b^-13v~-13b-13~----|
B---------/9v~-9b^--------------------------|
G--/10b^------------------------------------|
D-------------------------------------------|
A-------------------------------------------|
E-------------------------------------------|

e------------------/8v~-8b^-15b-13~-12------|
B---------/9v~-9b^--------------------------|
G--/10b^------------------------------------|
D-------------------------------------------|
A-------------------------------------------|
E-------------------------------------------|

e--13-12-11-10~-10-9-8-7~-7-6-5-4~-3-3/x----|
B-------------------------------------------|
G-------------------------------------------|
D-------------------------------------------|
A-------------------------------------------|
E-------------------------------------------|
Tap to rate this tab
# A B C D E F G H I J K L M N O P Q R S T U V W X Y Z