Song name
# A B C D E F G H I J K L M N O P Q R S T U V W X Y Z

Tom Petty - Alright For Now tab

-----------------------------------------------------------------------------
			     ALRIGHT FOR NOW - Tom Petty
-----------------------------------------------------------------------------
Tabbed by:   James Boddegan
Email:       james55982@aol.com

Tuning: Standard

Capo on 2nd fret

Notes:  I realize that the song is to be picked, but if you strum these
chords correctly, it sounds pristine.  Also, it is a tab so the timing isn't
perfect - but the chords are right.  Strum in a way that feels right to you.


Part I

e|---0----0---0--------0---0---0--------0---0---0--------0--------|
B|---1----1---1--------1---1---1--------1---1---1--------1--------|
G|---0h2--2---2--------0---0---0--------0---0---0--------0--------|
D|---3----3---3--------3---3---3--------2---2---2--------0--------|
A|---x----x---x--------x---x---x--------3---3---3--------3--------|
E|---x----x---x--------x---x---x--------x---x---x--------x--------|


Part II

e|---0----0---0--------0---0---0--------|
B|---1----1---1--------1---1---1--------|
G|---0h2--2---2--------0---0---0--------|
D|---3----3---3--------3---2---0--------|
A|---x----x---x--------x---3---2--------|
E|---x----x---x--------x---x---x--------|


Part III

e|---0----0---0--------0---0---0--------0---0---0--------x--------|
B|---1----1---1--------1---1---1--------1---1---1--------x--------|
G|---0h2--2---2--------0---0---0--------0---0---0--------x--------|
D|---3----3---3--------3---3---3--------2---2---2--------2--------|
A|---x----x---x--------x---x---x--------3---3---3--------3--------|
E|---x----x---x--------x---x---x--------x---x---x--------1--------|


Part IV / Turnaround


e|---x---x---x---x-------x-------0--------|
B|---x---x---x---x-------x-------1--------|
G|---x---x---x---x-------x-------0--------|
D|---2---2---2---2-------0-------2--------|
A|---3---3---3---3-------3-------3--------|
E|---1---1---1---1-------1-------x--------|




************************************

| /   slide up
| \   slide down
| h   hammer-on
| p   pull-off
| ~   vibrato
| +   harmonic
| x   Mute note
| b   Bend
| pb  Pre-bend
| br  Bend release
| pbr Pre-bend release
| brb Bend release bend

************************************
Tap to rate this tab
# A B C D E F G H I J K L M N O P Q R S T U V W X Y Z