Tom Petty - Candy tab

Artist: Tom Petty & The Heartbreakers
Song: Candy
Album: Mojo


Tabbed by: Revlin   6-22-10


Pretty simple 12 bar blues here, still a great song from the new album.


Intro

e|-----------------------------------------|
B|-----------------------------------------|
G|-----------------------------------------|
D|-----------------------------------------|
A|--9--9-9-11--11-11-12--12-12--11-9-11-9--|
E|--7--7-7-7---7--7--7---7--7---7--7-7--7--| Walk that a few times.


Verse

e|-----------------------------------------|
B|-----------------------------------------|
G|-----------------------------------------|
D|-----------------------------------------|
A|--9--9-9-11--11-11-12--12-12--11-9-11-9--|
E|--7--7-7-7---7--7--7---7--7---7--7-7--7--| x4
   "I sure like that candy..."



e|-----------------------------------------|
B|-----------------------------------------|
G|-----------------------------------------|
D|--9--9-9-11--11-11-12--12-12--11-9-11-9--|
A|--7--7-7-7---7--7--7---7--7---7--7-7--7--|
E|-----------------------------------------| x2
   "I sure like that candy..."


e|-----------------------------------------|
B|-----------------------------------------|
G|-----------------------------------------|
D|-----------------------------------------|
A|--9--9-9-11--11-11-12--12-12--11-9-11-9--|
E|--7--7-7-7---7--7--7---7--7---7--7-7--7--| x2
               "...them turnip greens..."


e|---------------------------------------|
B|---------------------------------------|
G|---------------------------------------|
D|-----------------------------------2~~~|
A|--4--4-4-6--6-6-7--7-7--6-4-6-4----2~~~|
E|--2--2-2-2--2-2-2--2-2--2-2-2-2----0~~~|
      "So when you put it on..."




Rinse and repeat for the rest of the song. Like I said, pretty simple.



Any comments, questions or corrections, e-mail me at SoftAsylum@gmail.com
Tap to rate this tab
 
# A B C D E F G H I J K L M N O P Q R S T U V W X Y Z