Song name
# A B C D E F G H I J K L M N O P Q R S T U V W X Y Z

Tom Petty - Flirting With Time tab

Artist: Tom Petty
Song: “Flirting with Time”
Tab: John Martin

This solo is tabbed in the crosspicking style of Stanley Brothers
guitarist George Shuffler. It uses a pick direction of down-down-up 
down-down-up down-up in a constant roll of eighth notes.
 
          Em                         G   

E|-------|--------0--------0-------|----------7----------------------]
B|-------|-----0--------0--------0-|------8---------------8----------]
G|-4--7--|--9--------9--------9----|--7---------------7-----------7--]
D|-------|-------------------------|--------------9-----------9------]
A|-------|-------------------------|---------------------------------]
E|-------|-------------------------|---------------------------------]
   D                                 Am
E|----------2-----------2----------|----------0-----------0----------]
B|------3-----------3-----------3--|------1-----------1--------------]
G|--2-----------2-----------4------|--2-----------0---------------0--]
D|---------------------------------|--------------------------2------]
A|---------------------------------|---------------------------------]
E|---------------------------------|---------------------------------]
   Em                                G
E|----------0-----------0----------|----------7----------------------]
B|------0-----------0-----------0--|------8------------8-------------]
G|--9-----------9-----------9------|--7------------7-----------7-----]
D|---------------------------------|-----------9-----------7---------]
A|---------------------------------|---------------------------------]
E|---------------------------------|---------------------------------]
   D                                 Am
E|----------2-----------2----------|---------------------------------]
B|------3-----------3--------------|---------------------------------]
G|--2-----------2-----------2---0--|---------2-----------2-----------]
D|---------------------------------|------2----------2-----------2---]
A|---------------------------------|--0----------0-----------0-------]
E|---------------------------------|---------------------------------]
Tap to rate this tab
 
# A B C D E F G H I J K L M N O P Q R S T U V W X Y Z