Song name
# A B C D E F G H I J K L M N O P Q R S T U V W X Y Z

Tom Petty - I Should Have Known It tab

----------------------------------------------------------------------------
          I Should Have Known It  Tom Petty & the Heartbreakers
----------------------------------------------------------------------------
Tabbed by: Jesse Ball	
Email: jesse.ball01@gmail.com


Tuning: Drop D
Key: G  


   Intro/Verse X4
e|------------------------------------------------------------------------|
B|------------------------------------------------------------------------|
G|--------------------3^--------------------------------------------------|
D|--------------0-3-0---5~~-----------------0-3-0-5~~---------------------|
A|-1^-3-1^-3-----------------1^-3-1^-3------------------------------------|
D|-----------5-------------------------5----------------------------------|

   Bridge X2
e|-/5-5-5-5--4--3---6-----------------------------------------------------|
B|-/5-5-5-5--4--3---5-----------------------------------------------------|
G|-/5-5-5-5--4--3--(3)----------------------------------------------------|
D|------------------------------------------------------------------------|
A|------------------------------------------------------------------------|
D|------------------------------------------------------------------------|

   Verse X1
e|------------------------------------------------------------------------|
B|------------------------------------------------------------------------|
G|--------------------3^--------------------------------------------------|
D|--------------0-3-0---5~~---------------0-3-0-5~~-----------------------|
A|-1^-3-1^-3-----------------1^-3-1^-3------------------------------------|
D|-----------5-------------------------5----------------------------------|

   Fill X1                                                   
e|------------------------------------------------------------------------|
B|-----/7~~--7-7--------5-----5---3-5~------------------------------------|
G|-----/7~~--7-7------3-5---3-5---3-5~-------3---------------0------------|
D|-----/7~~--7-7------3-5---3-5---3-5~--------3p0--5p3-------0------------|
A|-----/5~~--5-5------3-3---3-3---3-3-----------------5-(3)1^-------------|
D|------------------------------------------------------------5-----------|

   Verse X3

   Bridge X2

   Verse X1

   Fill X1

   Alt. Verse X8
e|------------------------------------------------------------------------|
B|------------------------------------------------------------------------|
G|------------------------------------------------------------------------|
D|-------------------3p0--------------------------------------------------|
A|--------------0h3h5---3p0-----------------------------------------------|
D|-3^-5-3^-5-0------------------------------------------------------------|

   



   Bridge X2

   Verse X1

   Fill (w. variation at end) X1                                     
e|------------------------------------------------------------------------|
B|-----/7~~--7-7--------5-----5---3-5~------------------------------------|
G|-----/7~~--7-7------3-5---3-5---3-5~-------3----------------0-------0---|
D|-----/7~~--7-7------3-5---3-5---3-5~--------3p0---5p3-------0-------0---|
A|-----/5~~--5-5------3-3---3-3---3-3------------------5-(3)1^------1^----|
D|-------------------------------------------------------------5-------5--|


   Outro Riff X16
e|------------------------------------------------------------------------|
B|-----------5-5-5----5---------------------------------------------------|
G|----3------5-5-5--3-5---------------------------------------------------|
D|-5--3--5---5-5-5--3-5---------------------------------------------------|
A|-5--3--5---3-3-3--3-3---------------------------------------------------|
D|-5-----5----------------------------------------------------------------|

   Fill (w. out D)
e|------------------------------------------------------------------------|
B|---5-----5---3-5~------5-----5---3-5~-----------------------------------|
G|-3-5---3-5---3-5~----3-5---3-5---3-5~------3-----------------0------0---|
D|-3-5---3-5---3-5~----3-5---3-5---3-5~-------3p0---5p3--------0------0---|
A|-3-3---3-3---3-3-----3-3---3-3---3-3------------------5-(3)1^-----1^----|
D|--------------------------------------------------------------5------5--|




| /  slide up
| \  slide down
| h  hammer-on
| p  pull-off
| ~  vibrato
| +  harmonic
| x  Mute note
===========================================================================
Tap to rate this tab
 
# A B C D E F G H I J K L M N O P Q R S T U V W X Y Z