Tom Petty - I Should Have Known It tab

Awesome song off of Tom Petty and The Heartbreaker's new album, MOJO.
**I Should Have Known It**

I only have the main riff so far... Will update when I figure out the rest.
Enjoy :)

E|----------------------------------------------------|
B|----------------------------------------------------|
G|---------------------b3-----------------------------|
D|---------------3--5------5------------------5-3-5---|
A|1h3-1h3-----5----------------1h3-1h3-----5----------|
E|---------3----------------------------3-------------|


OR


E|---------------------------------------------------|
B|---------------------------------------------------|
G|-------------------0--b3-0-----------------0-----0-|
D|-----------0---3------------------------0-----3----|
A|1h3-1h3---------------------1h3-1h3----------------|
E|---------3---------------------------3-------------|

Pretty sure that's 100%
Elliott
dabean100@gmail.com
Tap to rate this tab
 
# A B C D E F G H I J K L M N O P Q R S T U V W X Y Z