Song name
# A B C D E F G H I J K L M N O P Q R S T U V W X Y Z

Tom Petty - Dark Of The Sun tab

Tuning: Standard

e|---------------------------------------------------------------|
B|-12b13r-10~--8-8/5-5--5--3-3/1-1--1--0-0~----------------------|
G|-12b13r-11~--9-9/5-5--5--4-4/2-2--2--0-0~----------------------|
D|---------------------------------------------------------------|
A|---------------------------------------------------------------|
E|---------------------------------------------------------------|

e|-----3-5~--5/8-8~--8/10-12/10~-----3/15-15~-------15-------14--|
B|---3-----------------------------------------------------------|
G|-----------------------------------------------------16/14-----|
D|-5-------------------------------------------------------------|
A|---------------------------------------------------------------|
E|---------------------------------------------------------------|

e|----14/12----12-------10------8-----7p5-5-5-----3p2p0----------|
B|-----------------------------------------------------3p1p0-----|
G|-14-------12----12/11----11/9---9/7-----------------------2p0--|
D|---------------------------------------------------------------|
A|---------------------------------------------------------------|
E|---------------------------------------------------------------|

Chords: G  D  C  D 
        G  D  C  D 
        Em D  C  D 
b-bend
r-release
/-slide
~-let ring
Tap to rate this tab
 
# A B C D E F G H I J K L M N O P Q R S T U V W X Y Z