Tom Petty - Dont Come Around Here No More chords

Highlighted       Show chord diagrams
Don't Come Around Here No More
Intro (2x)
e|--------------|-------------|----5h7p5----|
B|-------6---3--|-------6-----|-------------|  
G|*--5-5---5----|---5-5---5-3-|------------*|  
D|*-------------|-------------|------------*|
A|--------------|-------------|-------------|
E|--------------|-------------|-------------|

Chorus
e|------3-----3-|-----5-----5-|-----7-----7-|-----5-----5--|
B|--------------|-------------|-------------|--------------|
G|--------------|-------------|-------------|--------------|
D|---5------5---|--5------5---|--5------5---|--5------5----|
A|--5-5----5----|-5-5----5----|-5-5----5----|-5-5----5-----|
E|--------------|-------------|-------------|--------------|

     B 
I've given up, stop. I've given up, stop. 
     B
I've given up, stop. On waiting any longer 
     B
I've given up, on this love getting stronger 

(Play Chorus)

        E
I don't feel you anymore 
    E
You darken my door 
    B  
Whatever you're looking for 
A
Hey! Don't come around here no more

(Play Chorus)

    B 
I've given up, stop. I've given up, stop. 
     A
I've given up, stop. You tangle my emotions 
     B
I've given up, honey please admit it's over 
  
Hey!
(Play Chorus 4x)
Tap to rate this tab
 
# A B C D E F G H I J K L M N O P Q R S T U V W X Y Z