Song name
# A B C D E F G H I J K L M N O P Q R S T U V W X Y Z

Tom Petty - I Wont Back Down tab

-------------------------------------------------------------------------------
                             I Won't Back Down - Tom Petty
-------------------------------------------------------------------------------
Tabbed by: Andreas Hejndorf

Tuning: EADGBe

So, this is just a nice little acoustic version of this song, which sounds 
wonderful on a Western guitar. This is also my first tab, so I hope you like it :)

Intro:
e|-----------------------0-0-0-0-----1/2---2-2-2-2-------------------------|
B|-----------------------2-2-0-2-----2/3---3-3-3-3-------------------------|
G|-----------------------2-2-2-2-----1/2---2-2-2-2-------------------------|
D|-----------------------2-2-2-2-----0-----0-0-0-0-------------------------|
A|--------------3-0--------------------------------------------------------|
E|----------0-3------------------------------------------------------------|

Verse:
       F#m   E    A          F#m   E    A
Well I won't back down, no I won't back down
        F#m      E         D
You can stand me up at the gates of hell
      F#m   E    A
But I won't back down

      F#m   E  A             F#m E      A
Gonna stand my ground, won't be turned around
         F#m  E               D
And I'll keep this world from draggin' me down
      F#m   E  A            F#m   E    A
Gonna stand my ground and I won't back down

Chorus:
D   E     D                       E
Hey baby, there ain't no easy way out
D    E      F#m   E  A            F#m   E    A
Hey, I will stand my ground and I won't back down

Intro

Verse:
       F#m  E      A           F#m  E   A
Well I know what's right I got just one life
     F#m        E        D
In a world that keeps on pushin' me around
         F#m   E  A            F#m   E    A
But I'll stand my ground and I won't back down

Chorus:
D   E     D                       E
Hey baby, there ain't no easy way out
D    E      F#m   E  A            F#m   E    A
Hey, I will stand my ground and I won't back down

Intro

Outro:
      F#m   E    A
And I won't back down
     F#m   E    A
No I won't back down

End with the intro
Tap to rate this tab
 
# A B C D E F G H I J K L M N O P Q R S T U V W X Y Z