Song name
# A B C D E F G H I J K L M N O P Q R S T U V W X Y Z

Tom Petty - Makin Some Noise tab

----------------------------------------------------------------------------
	     Makin' Some Noise - Tom Petty and the Heartbreakers
----------------------------------------------------------------------------
Tabbed by: Sam Johnson
Email: elcapitan@charter.net

Tuning: Standard


Intro/Main Riff

e|--------------3----------------------------------------| 
B|------------3---1-3------------------------------------|
G|--------3-0---------3-0--------------------------------|
D|--3-2-0-----------------2-0----------------------------|
A|-------------------------------------------------------| 
E|-------------------------------------------------------|
Tap to rate this tab
 
# A B C D E F G H I J K L M N O P Q R S T U V W X Y Z