Song name
# A B C D E F G H I J K L M N O P Q R S T U V W X Y Z

Tom Vek - One Horse Race tab

Song = "One Horse Race"
Artist = Tom Vek
Album = Nothing But Green Lights

EADGBE

/ = Slide up
\ = Slide down
( ) = Harmonics
x = Mute


Intro

Gtr. 1
E|--2--/--7--7--7--|
B|--2--/--7--7--7--|
G|-----------------|
D|-----------------| X4
A|-----------------|
E|-----------------|



Verse

Gtr. 1
E|--7--7--7--7--|
B|--7--7--7--7--|
G|--4--4--4--4--|
D|--------------| 
A|--------------|
E|--------------|

Gtr. 2
E|-------------------|
B|-------------------|
G|--0---0---0--------|
D|--4-/-5-\-4-0-0-0--| X8
A|--2-/-3-\-2-x-x-x--|
E|------------3-3-3--|



Chorus

Gtr. 1
E|--2--/--7--7--7--|
B|--2--/--7--7--7--|
G|-----------------|
D|-----------------|
A|-----------------|
E|-----------------|

Gtr. 2
E|---------------------|
B|---------------------|
G|------------7h9p7----|
D|--(7)~-(7)~-------9--|
A|---------------------|
E|---------------------|



Bridge

Gtr. 1
E|--9-9-9-9-9-9-9--|
B|--7-7-7-7-7-7-7--|
G|-----------------|
D|-----------------|
A|-----------------|
E|-----------------|

Gtr. 2
E|---------------------------------|
B|--7h8p7--------------------------|
G|--------9-7~-----9-7-----9-7-----|
D|-------------9~------9~------9~--| 
A|---------------------------------|
E|---------------------------------|


That was not a test of faith.

-Joe Tony.
Tap to rate this tab
# A B C D E F G H I J K L M N O P Q R S T U V W X Y Z