Song name
# A B C D E F G H I J K L M N O P Q R S T U V W X Y Z

Tom Vek - Aroused tab

e|--------------------------------------------------|
B|--------------------------------------------------|
G|-5-5-5-7------------------------------------------|
D|-5-5-5-7--7-7-3-----------------------------------|
A|-3-3-3-5--7-7-3-----------------------------------|
E|----------5-5-1-----------------------------------|





        These are the tom-tom sounding parts, I guess
        you could play them on bass or something.


        played throughout the song

e|--------------------------------------------------|
B|--------------------------------------------------|
G|--------------------------------------------------|
D|--------------------------------------------------|
A|--------------------------------------------------|
E|-5-5-5-1------------------------------------------|



        played at 2:08

e|--------------------------------------------------|
B|--------------------------------------------------|
G|--------------------------------------------------|
D|--------------------------------------------------|
A|--------------------------------------------------|
E|-5-5-5-0--1-1-1-3---------------------------------|   x7


e|--------------------------------------------------|
B|--------------------------------------------------|
G|--------------------------------------------------|
D|--------------------------------------------------|
A|--------------------------------------------------|
E|-5-5-5-0--1-1-1-----------------------------------|



Tap to rate this tab
# A B C D E F G H I J K L M N O P Q R S T U V W X Y Z