Song name
# A B C D E F G H I J K L M N O P Q R S T U V W X Y Z

Tom Vek - Blessing In Disguise tab

Main riff:

e|1-3-4-3-1--4--8-8-8-8-8--11--|
B|-----------------------------|
G|1-3-3-3-1--3--8-8-8-8-8--10--|
D|-----------------------------|
A|-----------------------------|
E|-----------------------------|


Bridge:

e|-----------------------------|
B|6-6-6-6-6--6--4-4-4-4-4--2---|
G|-----------------------------|
D|6-6-6-6-6--8--6-6-6-6-6--3---|
A|-----------------------------|
E|-----------------------------|


e|-----------------------------|
B|-----------------------------|
G|3-3-3-3-3--1-----------------|
D|--------------3-3-3-3-3--3---|
A|4-4-4-4-4--1-----------------|
E|--------------4-4-4-4-4--4---|
Tap to rate this tab
# A B C D E F G H I J K L M N O P Q R S T U V W X Y Z