Guitaretab - guitar tabs
Song name
# A B C D E F G H I J K L M N O P Q R S T U V W X Y Z

Tom Vek - I Aint Saying My Goodbyes tab

This was writen by Tom himself on his forum.

e-----------------------------------------------|
b--0----0--------0----0-------0-----------------|
g--5----5--------5----5-------0-----------------|
d--7----7--------7----7-------7(H)*-------------|
a-(D)--(D)------(D)--(D)-----(D)----------------|
E-(D)--(D)------(D)--(D)-----(D)----------------|

* I just made this symbol up i think but it means "Harmonic" ie you rest your finger on 
string with out pressing it onto the fret, so it makes a kinda "ping" sound.
[ Tab from: http://www.guitaretab.com/t/tom-vek/69101.html ]
(D) - You've really got to tank this out, whack all the strings (xcept high e) but use 
thumb to deaden E and A, and it sounds different on every guitar i play it on.


The chorus guitar (whack each chord for like 4 or 8 beats)

e--------------------------------------------------------|
b--0---0---0---6-8---0----------0---0---0---0---0--------|
g--5---5---0---5-5---5----------5---5---0---7---5--------|
d--7---5---5---0-0---7----------7---5---5---5---7--------|
a----------7----------------------------7----------------|
E--------------------------------------------------------|


at the end just tank this:

e----------|
b--0-------|
g--5-------|
d--7-------|
a----------|
E----------|
Related for I Aint Saying My Goodbyes tab
Advertisement will be closed in 10 seconds