Song name
# A B C D E F G H I J K L M N O P Q R S T U V W X Y Z

Tom Vek - If You Want tab

Credit goes to the original poster. I've corrected the tab by making the mirror
image to map the strings in the correct order.


Riff one….
|-------------------------------(P)6---------------------(P)2-------------(P)4---------|
|-------------------------------------(P)0/2------------------(P)2/4-------------------|
|--------------------------------------------(S)2-2------------------(S)4-4------------|
|(S)2-2-2-2-2-2-2-2-2-2-2--------------------------------------------------------------|

Riff two….
|------------------------------------------------------------------|
|------------------------------------------------------------------|
|--2-2-2-2-2-2-2-2--4-4-4-4--5-5-----------------------------------|
|------------------------------------------------------------------|

Riff Three…
|---------------------------------------------------------------------|
|-----------------------------------2---------------------------------|
|----------------0--2-2-2-2--0-0--------------------------------------|
|-2-2-2-2--0-0--------------------------------------------------------|

S= Slap
P=Pop
Tap to rate this tab
# A B C D E F G H I J K L M N O P Q R S T U V W X Y Z