Song name
# A B C D E F G H I J K L M N O P Q R S T U V W X Y Z

Tom Verlaine - Red Leaves tab

Well Rhythm section for "Red Leaves", not accurate, but close to the truth
Does anybody have solo for this adorable song?
Also I seeking for "Cry Mercy Judge" and "Town Called a Walker" tabs


Main riff

e-|----------------------------------------|
B-|----------------------------------------|
G-|--2--2-2--0--2--------------------------|
D-|--2--2-2--0--2--------------------------|
A-|--0--0-0--0--0--------------------------|
E-|----------------------------------------|

Chorus

e-|------------------------------------------------------|
B-|---3---2---3---2---3---2------------------------------|
G-|---2---2---2---2---2---2------------------------------|
D-|---0---0---0---0---0---0----2---2---2-2--3-3----------|
A-|----------------------------2---2---2-2--2-2----------|
E-|----------------------------0---0---0-0--0-0----------|



In solo part play this few times

e-|-----------------------------------------|
B-|-----------------------------------------|
G-|-----------------------------------------|
D-|---2-------------------------------------|
A-|---2-------------------------------------|
E-|---0-------------------------------------|


Last chorus play like this few times


e-|-----------------------------------------------|
B-|-----------------------------------------------|
G-|--2-----3-----2--------------------------------|
D-|--2-----2-----2-----2--------------------------|
A-|--0-----0-----0-----2--------------------------|
E-|--------------------0--------------------------|
Tap to rate this tab
 
# A B C D E F G H I J K L M N O P Q R S T U V W X Y Z