Guitaretab - guitar tabs
Song name
# A B C D E F G H I J K L M N O P Q R S T U V W X Y Z

Tom Waits - Jockey Full Of Burbon tab

--------------------------------------------------------------------------
			     Jockey Full of Bourbon  Tom Waits
--------------------------------------------------------------------------
Tabbed by: Andrew Boatright	
Email: andyc_5@yahoo.com

Tuning: normal 

e|-----------------------------------------------------------------------|
B|-----------------------------------------------------------------------|
G|------0--2--4-------4------------0--4--2-----0--------5-4-2------------|
D|--2-2---------2-2-2----2----2-2----------------4-2-1--------4----------|
A|-----------------------------------------------------------------------|
E|-----------------------------------------------------------------------|
[ Tab from: http://www.guitaretab.com/t/tom-waits/148717.html ]
e|-----------------------------------------------------------------------|
B|--5-5-4-0---55555------------------------------------------------------|
G|---------------------4---4---4---4-4-3-4-3-4-3-4-3-2-------------------|
D|-------------------2---2---2---2---------------------5-4-4-4-4---------|
A|-----------------------------------------------------------------------|
E|-----------------------------------------------------------------------|

e|-----------------------------------------------------------------------|
B|---------------------------------------5-0-----------------------------|
G|-----------------4-5-4-2-------------4-----0-2-------------------------|
D|----1-4-4----------------5-4-2-1-2-5-----------------------------------|
A|--2-------2------------------------------------------------------------|
E|-----------------------------------------------------------------------|
Related for Jockey Full Of Burbon tab