Song name
# A B C D E F G H I J K L M N O P Q R S T U V W X Y Z

Tom Waits - Hoist That Rag tab

-------------------------------------------------------------------------------
			     Hoist that Rag - Tom Waits
-------------------------------------------------------------------------------
Tabbed by: Antaios
Email: geeter1321@yahoo.com

For this solo, it's pretty much the same thing, only with small tweaks and variations.
I'm not going to get every detail because the whole cd is so muffled.
Anyway, here you go:

It opens as such
e|5--5-----------------------------------------------------------------------|
B|5--6--6-----------6-5------6-5------6-5------6-5---------------------------|
G|5--7-----5-4----5--------5--------4--------5-------------------------------|
D|7--7----------7--------7--------6--------7---------------------------------|
A|---------------------------------------------------------------------------|
E|---------------------------------------------------------------------------|

Then, it gets a little smoother
e|-----------------------------------------------------------------------------|
B|------6---5--------6---5--------6---5--------6---5---------------------------|
G|----5---7--------5---7--------4---7--------5---7-----------------------------|
D|5/7----------5/7----------4/6----------5/7-----------------------------------|
A|-----------------------------------------------------------------------------|
E|-----------------------------------------------------------------------------|

Somewhere in there, you'll wanna throw one of these in...
e|-----8-7--5----------------------------------------------------------------|
B|---------------------------------------------------------------------------|
G|--5------------------------------------------------------------------------|
D|7--------------------------------------------------------------------------|
A|---------------------------------------------------------------------------|
E|---------------------------------------------------------------------------|

...or this
e|8p5-7-5---5----------------------------------------------------------------|
B|--------8------------------------------------------------------------------|
G|---------------------------------------------------------------------------|
D|---------------------------------------------------------------------------|
A|---------------------------------------------------------------------------|
E|---------------------------------------------------------------------------|

This is the most fun part of the solo (at about 2:22)
e|-------------------------------------------------------------------------------|
B|--------6-5-------------------5-5--------------------------------------6-5---5-|
G|--5--7------[7--5-4-5-7(x4)]------7-5--4h5p4-----------4-7-5-4---4-5-7-----7---|
D|7--------------------------------------------7-------6---------7---------------|
A|-----------------------------------------------8-8-7---------------------------|
E|-------------------------------------------------------------------------------|

(continued)
e|8p5-7-5--8-7-5--------8p5-7-5---8-7-5---0-0-0-0-0-0------------------------|
B|---------------6-6-6----------5---------4b5-4b5-4b5-3---3-5p3---3-5-5-3----|
G|------------------------------------------------------5-------5------------|
D|---------------------------------------------------------------------------|
A|---------------------------------------------------------------------------|
E|---------------------------------------------------------------------------|

e|--8-7-5--5-5---------------------------------------------------------------|
B|5--------5-5---------------------------------------------------------------|
G|--------------7p5p0--------------------------------------------------------|
D|--------------------7------------------------------------------------------|
A|---------------------------------------------------------------------------|
E|---------------------------------------------------------------------------|


| /  slide up
| \  slide down
| h  hammer-on
| p  pull-off
| ~  vibrato
| +  harmonic
| x  Mute note
===============================================================================
Tap to rate this tab
# A B C D E F G H I J K L M N O P Q R S T U V W X Y Z