Song name
# A B C D E F G H I J K L M N O P Q R S T U V W X Y Z

Tom Waits - Make It Rain tab

Help us improve GuitareTab! Take a short survey!
-------------------------------------------------------------------------------
			     MAKE IT RAIN - Tom Waits
-------------------------------------------------------------------------------
Tabbed by: Antaios
Email: geeter1321@yahoo.com


e|---------------------------------------------------------------------------|
B|---------------------------------------------------------------------------|
G|-------------12---------------12---------------12--12----------------------|
D|14b16p12-----11--14b16p12-----11--14b16p12-----11--11h13--11-13p11----11---|
A|---------14---------------14---------------14----------------------13------|
E|---------------------------------------------------------------------------|

e|---------------------------------------------------------------------------|
B|------------------15--14--------------15-15---15-15-15h17-15---------------|
G|----------12/16-----------15----------16-16---16-16-16----16---------------|
D|13p11-----11/16---------------16--15---------------------------------------|
A|------13-------------------------------------------------------------------|
E|---------------------------------------------------------------------------|

e|-----------------------------------------------------------------------------|
B|-----------------------------------------------------------------------------|
G|16-14----14h16--14-----------------------------------------------------------|
D|------16-----------16-14--------16-------------------------------------------|
A|-------------------------17-14--17--19b--17----------------------------------|
E|-----------------------------------------------------------------------------|


| /  slide up
| \  slide down
| h  hammer-on
| p  pull-off
| ~  vibrato
| +  harmonic
| x  Mute note
===============================================================================
Related for Make It Rain tab