Song name
# A B C D E F G H I J K L M N O P Q R S T U V W X Y Z

Tom Waits - Clap Hands tab

Clap Hands - Tom Waits
guitar - Marc Ribot

this might not be it exactly, but i think its close.
stings are bent to the max and there seems to be a whole lot of whammy-bar/
bigsby, so it's hard to tell exactly what he's playing...


|-7b~~--7~7~7~-7~~----7b-7b-5b-10b~~~--10b----/---10b~7~--------------------|
|-7b~~--7~7~7~-7~~----7b-7b-7b--7b~~~---7-{strum}-------10~7~---------------|
|-7b~~--7~7~7~-7~~----7b-7b-7b--7b~~~---7---/----------------9~-7-----0~~~~-|
|------------------------------------------------------------------9~-------|
|---------------------------------------------------------------------------|
|---------------------------------------------------------------------------|


-7b~~~-7~7~7-6/7~~~-----------------10b----------------12b-10-------19~~~--|
-7b~~~-7~7~7-6/7~~~12~12~12~12~12~12----12-12-12-12-12--------12b---19~~~--|
-7b~~~-7~7~7-7~7~~~--------------------------------------------------------|
---------------------------------------------------------------------------|
---------------------------------------------------------------------------|
---------------------------------------------------------------------------|


rest of the song is pretty simple.   Bm and G
it'd be good to see a the marimba part transcibed to guitar.
Tap to rate this tab
# A B C D E F G H I J K L M N O P Q R S T U V W X Y Z