Song name
# A B C D E F G H I J K L M N O P Q R S T U V W X Y Z

Tom Waits - Martha tab

Tom Waits - Martha
by kanshiketsu89

Here's a guitar instrumental for Martha. It's in standard tuning and you can
put a capo on the first fret, like I do. I wrote it myself, and this is my
first tab. If there's a mistake somewhere in the tab, please contact me and
I'll fix it. I didn't add the timing nor did I point out which pattern to
play and how many times. These are just all the patterns you need to play
the song, and it's up to you to put them together (which really shouldn't be
a problem). I've put some lyrics above to make it even easier. If you have
problems, watch my video on youtube. Here's the link:
http://www.youtube.com/watch?v=hmgN21W-Lrw
And that's about all. Have fun.

P.S. Good luck misterblitzer... ;) 

          Intro..
1/-2---0---2---0---2---0--------/--2---0---2----0-2----0--------------/
2/---3---2---3---2-3--3---2--3--/----3---2---3----3--3---2-3-----3/5--/
3/-----------------4---------0--/-----------------4--------0---0------/
4/-0-------0-----------------0--/--0-------0---------------0-0--------/
5/-----0-------0---2----0-------/------0----------2----0--------------/
6/---------------------------3--/--------------------------3----------/
  
    Operator, number please....        Hello, hello there....       
    She remembers my old voice...    
e/--2---0---2---0-2----0------------/-0---2---0-2h3p2----/-0---2---0-2h3p2-/
B/----3---2---3---3--3---2--3-----3-/---2---3----------3-/---2---3---------/
G/----------------4---------0---0---/--------------------/-----------------/
D/--0-------0---------------0-0-----/-0-------0----------/-0-------0-------/
A/------0---------2----0------------/-----0---------0----/-----0-----------/
E/--------------------------3-------/--------------------/-----------------/

                        Don't worry 'bout the cost...
e/-0---2---0-2h3p2----/-2---0-----/
B/---2---3----------3-/-3-3---2-3-/
G/--------------------/-4-------0-/      (repeat this way until refrain)
D/-0-------0----------/---------0-/
A/-----0---------0----/-2---0-----/
E/--------------------/---------3-/ 

Refrain
 Those were days of...
e/---------------------------------3p2-----3p2-----3p2----------/
B/---------0h3-------------0h3---3-----3p0-----3p0-----3-3---3--/
G/---2---2-------2-2-2---2-----2--------------------------------/
D/-0---0-------0---0---0-----------0-------0-------0---------0--/
A/-----------------0-------------------0-------0-------0--------/
E/--------------------------------------------------------------/

   There was no...                          Rainy days.....
e/----------------------------------3p2-----3p2-----/
B/---------0h3--------------0h3---3-----3p0-----3-3-/
G/-2-2---2--------2-2-2---2-----2-------------------/
D/-0---0--------0---0---0-----------0-------0-------/
A/-0-------0--------0-------0-----------0---------0-/
E/--------------------------------------------------/

   After refrain
e/-2---0---2---0---2---0------/
B/-3-3-2-2-3-3-2-2-3-3-2-2-3--/
G/-2---2---2---2---4---2---0--/  (and back to the start)
D/-0-------0---------------0--/
A/-----0-------0---2---0------/
E/-------------------------3--/
Tap to rate this tab
 
# A B C D E F G H I J K L M N O P Q R S T U V W X Y Z