Tom Waits - Downtown Train tab

-------------------------------------------------------------------------------
			     Downtown Train  Tom Waits
-------------------------------------------------------------------------------
Tabbed by:Skippysteve
Email:steveg55@hotmail.com

Tuning:Standard

This is my first Tab  intro and Fills  corrections and  additions welcome
Listen to recording for timing

Into
e|-11b ------------------------------3---------------------------------------|
B|----6--6h8p6--4---------------3--4 -----6---3-----4------------------------|
G|--------------------3-5----------------------------------------------------|
D|---------------------------------------------------------------------------|
A|---------------------------------------------------------------------------|
E|---------------------------------------------------------------------------|


Fill   1
e|------------6--8-8/10\8~----8/10\8~ -------------------------------------|
B|-------------------------------------------------------------------------|
G|------5--9---------------------------------------------------------------|
D|-------------------------------------------------------------------------|
A|-------------------------------------------------------------------------|
E|--6----------------------------------------------------------------------|

Fill 2
e|-----------6---8-8/10\8~---------------------------------------------------|
B|---------------------------------------------------------------------------|
G|----5--9-------------------------------------------------------------------|
D|---------------------------------------------------------------------------|
A|---------------------------------------------------------------------------|
E|--6------------------------------------------------------------------------|





************************************

| /   slide up
| \   slide down
| h   hammer-on
| p   pull-off
| ~ vibrato
| +   harmonic
| x   Mute note
| b   Bend
| pb  Pre-bend
| br  Bend release
| pbr Pre-bend release
| brb Bend release bend

************************************
Tap to rate this tab
 
# A B C D E F G H I J K L M N O P Q R S T U V W X Y Z