Song name
# A B C D E F G H I J K L M N O P Q R S T U V W X Y Z

Tom Waits - Whistlin Past The Graveyard tab

Whistlin Past the Graveyard - Tom Waits

No matter how much i looked i couldnt find a tab for this song so i decided to figure it 
out myself. The song is pretty simple so this tab is 100% correct. Listen to the song 
for the rythm, its pretty easy to catch. :)

Intro/Verse:
e||------------------|
B||------------------|
G||------------------|
D||------------------|
A||----------2---2---|
E||-2-5-2-5----------|

Chorus:
e||------------------|
B||------------------|
G||------------------|
D||-5~-----4--(4)----|  x2
A||-5~-----4--(4)----|
E||-3~-----2--(2)----|

Solo: Blues scale (pentatonic) from B
Tap to rate this tab
 
# A B C D E F G H I J K L M N O P Q R S T U V W X Y Z