Song name
# A B C D E F G H I J K L M N O P Q R S T U V W X Y Z

Tom Waits - Jockey Full Of Bourbon tab

-------------------------------------------------------------------------------
			Jockey Full of Bourbon - Tom Waits
-------------------------------------------------------------------------------
Tabbed by: Boris G.
Email: eastpole12@gmail.com

Note: This solo tab is based on the intro tab of Jake Chambers (unpatriot19@yahoo.com)to 
song. You can find it here:http://ultimate-guitar.com/tabs/t/tom_waits/jockey_full_of_bourbon_tab.htm


Tuning: Standard


This is my first tab. Hope you like it.

01:22 - 01:30
e|---------------------------------------------------------------------------|
B|---------------------------------------------------------------------------|
G|--------------3----------5-4-----------------------5--4--3--2~-------------|
D|--5b----2-2-2---2----2-2-----6b~------5--4--3--2~--------------------------|
A|---------------------------------------------------------------------------|
E|---------------------------------------------------------------------------|


01:31 - 01:39
e|---------------------------------------------------------------------------|
B|--1-1------1-1-1-1-1-------------------------------------------------------|
G|------4-3-----------------4----4-----4----4-3-4-3-2-3-2-3--2--1------------|
D|-----------------------2----2-----2-----2------------------------5--4-4~---|
A|---------------------------------------------------------------------------|
E|---------------------------------------------------------------------------|


01:40 - 01:45
e|----------------------------------------1~---------------------------------|
B|-------------------------------------2-------------------------------------|
G|---------------3-4-3-2--1-2-1------1---------------------------------------|
D|-----2-3-3--------------------3--2-----------------------------------------|
A|--1~-------1~--------------------------------------------------------------|
E|---------------------------------------------------------------------------|
Tap to rate this tab
# A B C D E F G H I J K L M N O P Q R S T U V W X Y Z