Song name
# A B C D E F G H I J K L M N O P Q R S T U V W X Y Z

Tom Waits - Ice Cream Man tab

I noticed that the currently existing tabs are either in wrong key or just don't cover 
the whole song, so I decided to make a new one.

Intro:


E||-------11-15-13-11-13-15-13-11-10----10-11----10-11----10-11-10-------|
B||----13----------------------------13-------13-------13----------13-12-|
G||----------------------------------------------------------------------|
D||----------------------------------------------------------------------|
A||----------------------------------------------------------------------|
E||----------------------------------------------------------------------|

Repeat 2 times then:

E||-------11-15-13-------------|
B||----13----------13-15-13-12-|
G||----------------------------|
D||----------------------------|
A||----------------------------|
E||----------------------------|

Main riff:


E||-------------------------|
B||-------------------------|
G||--------5----------------|
D||--------5--5--5--5-------|
A||--------3--8--6--5-------|
E||----3-7------------------|

I've got a cherry popsicle... part:


E||---------------------|
B||---------------------|
G||----5----------------|
D||----5---3---5-5-5-5--|
A||----3---3---5-5-5-5--|
E||--------1---3-3-3-3--| (listen to the song for accurate timing)

There are also some licks thrown in over the main riff:

E||--------------------------------|
B||----------8-8-------------------|
G||----10b11-----10-8-10-8-10-8----|
D||-----------------------------10-|
A||--------------------------------|
E||--------------------------------|


E||-------------8-11---|
B||----12-13-13--------|
G||--------------------|
D||--------------------|
A||--------------------|
E||--------------------|


E||----------11-11----------------------------------------|
B||----12b13-------12b13----------------------------------|
G||----------------------13-11----11----------------------|
D||----------------------------14----14-11-14-11----14-11-|
A||----------------------------------------------14-------|
E||-------------------------------------------------------|

Those are just examples, try to improvise a little bit, it's not so hard.
Tap to rate this tab
 
# A B C D E F G H I J K L M N O P Q R S T U V W X Y Z