Song name
# A B C D E F G H I J K L M N O P Q R S T U V W X Y Z

Tom Waits - Clap Hands tab

-------------------------------------------------------------------------------
			     CLAP HANDS - Tom Waits
-------------------------------------------------------------------------------
Tabbed by: Antaios
Email: geeter1321@yahoo.com

Tuning: standard

e|---------------------------------------------------------------------------|
B|-12~----12~-12~-12~-12~-12~------12~-12~-12~-/19---19-19-19-19-19\12-------|
G|---------------------------------------------------18-18-18-18-18----------|
D|---------------------------------------------------------------------------|
A|---------------------------------------------------------------------------|
E|---------------------------------------------------------------------------|

e|-10------------------------------------------------------------------------|
B|------9------------------10----10--10--10--10b10.5-------------------------|
G|----8--------10----------10----10--10--10--10b10.5-------------------------|
D|--------9----------10~-----------------------------------------------------|
A|----------11----11---------------------------------------------------------|
E|---------------------------------------------------------------------------|

e|--------------12x----------------/16--12/14--19-19-19----------------------|
B|-/12-12-12-12-----12-12-12-12-12-------------19-19-19----------------------|
G|---------------------------------------------------------------------------|
D|---------------------------------------------------------------------------|
A|---------------------------------------------------------------------------|
E|---------------------------------------------------------------------------|

************************************

| /   slide up
| \   slide down
| h   hammer-on
| p   pull-off
| ~   vibrato
| +   harmonic
| x   Mute note
| b   Bend
| pb  Pre-bend
| br  Bend release
| pbr Pre-bend release
| brb Bend release bend

************************************
Tap to rate this tab
 
# A B C D E F G H I J K L M N O P Q R S T U V W X Y Z