Song name
# A B C D E F G H I J K L M N O P Q R S T U V W X Y Z

Tom Waits - In Between Love tab

Tom Waits - In Between Love
The Early Years Part 2

It's probably not how Waits plays it, it's how I play it ;).
The song is based on two parts, each is played twice, than alternate to the second. 


Capo 1

intro (2x)
||-----------------------------------------------------|| 
||-----4-4-4------4-------4-------4--------4-----4-3-4-|| 
||---3-3-3-3------3-------3-------0--------0-----3-3-3-|| 
||-0------------0---0---0---0---0--------0---0---0-3-3-|| 
||-------5-5--3--------------------------------0-------|| 
||--------------------3-------4-----4--3---------------||


1st verse 
Part A (2x)
||-------------------------------------------------------------------------||
||-------4--4--4---------4-----------4-----------4-----------4--------4-3-4||
||----3--3--3--3---------3-----------3-----------0-----------0--------3-3-3||
||-0------------------0-----0-----0-----0-----0-----0-----0-----0-----0-3-3||
||----------5--5---3-----------------------------------------------0-------||
||----------------------------3-----------4-----------3--------------------||

1 In between love and trying to scheme love who can tell what we may find

2 Never thought love, not get caught love between the magic in your eyes

Part B (2x) 
||-------------------------------------------------------------------------||
||-------4-----------4-----------4------------3----------------------------||
||-------5-----------5-----------5------------3----------------------------||
||----5-----5-----5-----5-----5-----5-----3-------3------------------------||
||-3-----------0-----------------------0-----------------------------------||
||-------------------------4-----------------------------------------------||
         
3 Your loves a wind and it's a cool and breezy

4 Never thought that love could be so easy


Chorus
A (1x)
|-------------------------------------------------------------------------|
|-------4--4--4---------4-----------4-----------4-----------4--------4-3-4|
|----3--3--3--3---------3-----------3-----------0-----------0--------3-3-3|
|-0------------------0-----0-----0-----0-----0-----0-----0-----0-----0-3-3|
|----------5--5---3-----------------------------------------------0-------|
|----------------------------3-----------4-----------3--------------------|

5 In between love and trying to scheme love, in between looooove 

Aa (1x)
|-------------------------------------------------------------------------|
|-------4--4--4---------4-----------4-----------4-----------4--------4-3-4|
|----3--3--3--3---------3-----------3-----------0-----------0--------3-3-3|
|-0------------------0-----0-----0-----0-----0-----------0-----0-----0-3-3|
|----------5--5---3-----------------------------------------------0-------|
|----------------------------3-----------4--------4--3--------------------|

6 Again ... (instrumental)

B (2x)
||-------------------------------------------------------------------------||
||-------4-----------4-----------4------------3----------------------------||
||-------5-----------5-----------5------------3----------------------------||
||----5-----5-----5-----5-----5-----5-----3-------3------------------------||
||-3-----------0-----------------------0-----------------------------------||
||-------------------------4-----------------------------------------------||

(instrumental) 


2nd verse
A (2x)
||-------------------------------------------------------------------------||
||-------4--4--4---------4-----------4-----------4-----------4--------4-3-4||
||----3--3--3--3---------3-----------3-----------0-----------0--------3-3-3||
||-0------------------0-----0-----0-----0-----0----0------0-----0-----0-3-3||
||----------5--5---3-----------------------------------------------0-------||
||----------------------------3-----------4-----------3--------------------||

1 In between love and trying to scheme love who can tell what we may find

2 All this time love, oh I sublime love to the feelings in my mind

B (2x)
||-------------------------------------------------------------------------||
||-------4-----------4-----------4------------3----------------------------||
||-------5-----------5-----------5------------3----------------------------||
||----5-----5-----5-----5-----5-----5-----3-------3------------------------||
||-3-----------0-----------------------0-----------------------------------||
||-------------------------4-----------------------------------------------||

3 Your loves a wind and it's a cool and breezy

4 Never thought that love could be so easy


Chorus
A (1x)
|-------------------------------------------------------------------------|
|-------4--4--4---------4-----------4-----------4-----------4--------4-3-4|
|----3--3--3--3---------3-----------3-----------0-----------0--------3-3-3|
|-0------------------0-----0-----0-----0-----0-----0-----0-----0-----0-3-3|
|----------5--5---3-----------------------------------------------0-------|
|----------------------------3-----------4-----------3--------------------|

5 In between love and trying to scheme love, in between looooove 

Aa (1x)
|-------------------------------------------------------------------------|
|-------4--4--4---------4-----------4-----------4-----------4--------4-3-4|
|----3--3--3--3---------3-----------3-----------0-----------0--------3-3-3|
|-0------------------0-----0-----0-----0-----0-----------0-----0-----3-3-0|
|----------5--5---3-----------------------------------------------0-------|
|----------------------------3-----------4--------4--3--------------------|

6 Again ... (instrumental)                                              end



Lyrics

In between love and trying to scheme love
Who can tell what we may find
Never thought love, not get caught love
Between the magic in your eyes
Your love's a wind and it's a cool and breezy
Never thought that love could be so easy
In between love and trying to scheme love
In between love... again
In between love and trying to scheme love
Who can tell what we may find
All this time love, oh I sublime love
To the feelings in my mind
Your love's a wind and it's a cool and breezy
Never thought that love could be so easy
In between love and trying to scheme love
And in between love... again 

Tap to rate this tab
# A B C D E F G H I J K L M N O P Q R S T U V W X Y Z