Song name
# A B C D E F G H I J K L M N O P Q R S T U V W X Y Z

Tom Waits - Bad As Me tab

Tom Waits 
                        bad as me


                                F5
E |----------------------------|----------------------------|
B |----------------------------|----------------------------|
G |----------------------------|----------------------------|
D |----------------------------|----------------------------|
A |-----------------------7M---|--8M-8M-8M-8M-8M-8M-8M-7M---|
E |----------------------------|----------------------------|


----------------------------||
----------------------------||
----------------------------||
----------------------------||
--8M-8M-8M-8M-8M-8M-8M-7M---||
----------------------------||

E5
----------------------------||
----------------------------||
----------------------------||
----------------------------||
--7M-7M-7M-7M-7M-M-7M-7M----||
----------------------------||



the little riff after the verses
E |----------------------------|-------|----------------------------|
B |----------------------------|-------|--1.------------------------|
G |--1.----0-------------------|-------|--------3--1----------------|
D |-----------3-----1-----2L---|--2----|-----------------2-----3L---|
A |----------------------------|-------|----------------------------|
E |----------------------------|-------|----------------------------|



this is from the verse 2 and next:
-----------------------------|--------8.----------8.------|
-----------------------------|-----9-----------9----------|
-----------------------------|--10-------10---------------|
-----------------------------|----------------------------|
-----------------------------|----------------------------|
-----------------------------|----------------------------|


--------8.----------8.------|--------8.----------8.------|
-----9-----------9-----9----|-----8-----------8----------|
--10-------10---------------|--9--------9----------------|
----------------------------|----------------------------|
----------------------------|----------------------------|
----------------------------|----------------------------|


--------8.----------8.------|
-----8-----------8----------|
--9--------9----------------|
----------------------------|
----------------------------|
----------------------------|

Break 1 :
--------8.-------8.---------|
--------9--------9----------|
--------10-------10---------|
----------------------------|
----------------------------|
----------------------------|

--------8.-------8.---------|--------8.-------8.---------|
--------9--------9----------|--------9--------9----------|
--------10-------10---------|--------10-------10---------|
----------------------------|----------------------------|
----------------------------|----------------------------|
----------------------------|----------------------------|


--------6.-------6.---------||
--------8--------8----------||
--------9--------9----------||
----------------------------||
----------------------------||
----------------------------|| x2
Tap to rate this tab
# A B C D E F G H I J K L M N O P Q R S T U V W X Y Z