Song name
# A B C D E F G H I J K L M N O P Q R S T U V W X Y Z

Tom Waits - Hoist That Rag tab

-------------------------------------------------------------------------------
                            Hoist That Rag (Solo) Tom Waits
-------------------------------------------------------------------------------
Tabbed by: Shawn Dimery
E-mail: thedimery@gmail.com

Tuning: Standard

This is the most in depth tab of this solo on the internet! My favourite solo, I though 
it was about time this got done and shared with you lovely people!
It is 100% accurate.
e|---------------------------------------------------------------------------|
B|--555-6-6-5-----------6-5--------6-5-5--------6-55------6-5--------6-5-5---|
G|--555-------5-4-----5----------5------------5---------7----------5---------|
D|--777-------------6--------2/7----------2/7---------7------- 2/6-----------|
A|---------------------------------------------------------------------------|
E|---------------------------------------------------------------------------|

e|---------------------------------------------------------8-7-5-------------|
B|-------6---5-------6---5--------6---5-------6---5--------------------6---5-|
G|-----5---7-------5---7--------5---7--------5--5-------5------------5---7---|
D|-6/7---------6/7----------6/7----------4/6--------7-7----------6/7---------|
A|---------------------------------------------------------------------------|
E|---------------------------------------------------------------------------|

e|------------------------8-7-5---5------------------------------------------|
B|-------6-5----------6-5-------8--------5-----6-5----------6---5--------6-5-|
G|-----7------------5------------------5-----7-----7------5---5--------5-----|
D|-7-7--------2/6-6------------------7-----7----------4/6----------4/7-------|
A|---------------------------------------------------------------------------|
E|---------------------------------------------------------------------------|

e|--------------------8-7-5--------------------------------------------------|
B|------6---5-------6-5--------------8-6/5-----------6-5-------6--5------6--5|
G|----5---7-------7----------5-------------7---5---5---------5--7------5--5--|
D|-4/7----------7-7-------2/6---------------------7-------5/7-------4/6------|
A|---------------------------------------------------------------------------|
E|---------------------------------------------------------------------------|

e|--------------------------------------------------4/555-8b-----------------|
B|--------6---5--------6---5--------5-5------5-5----4/555-----------6-5------|
G|------5---7--------5---7--------6--------------4--4/555-----5--5-----7-5-4-|
D|--5/7----------7-7----------7-7--------4/6----------------------7----------|
A|---------------------------------------------------------------------------|
E|---------------------------------------------------------------------------|

e|---------------------------------------------------------------------------|
B|-----------------------------------------------------------------6-5-4-5---|
G|-5-7-5-4-7-5-4-7-5-4-5-7-9-9-6-4h5p4---------------7/5-4---4-5-7-----------|
D|-------------------------------------7-------6-7-9-------7-----------------|
A|---------------------------------------8-8-7-------------------------------|
E|---------------------------------------------------------------------------|

e|-8p5-7-5-5-8-7-5---8-75---8-7-5--------------------------------------------|
B|-----------------6------5-------5------------------------------------------|
G|---------------------------------------------------------------------------|
D|----------------------------------7b-7b-7b-7b-5-7-7b-5-7-7b-7b-------------|
A|---------------------------------------------------------------7-7---------|
E|---------------------------------------------------------------------------|

e|-5-8-7-5-------------------------------------------------------------------|
B|---------5---------------6-5---------6-5-------6---5-----------------------|
G|-----------5-4---------5-----------7---------5---5--------5-6-5------------|
D|---------------7-8---7-------5/7-7-------4/6----------4/6------------------|
A|---------------------------------------------------------------------------|
E|---------------------------------------------------------------------------|


************************************

| /   slide up
| \   slide down
| h   hammer-on
| p   pull-off
| ~   vibrato
| +   harmonic
| x   Mute note
| b   Bend
| pb  Pre-bend
| br  Bend release
| pbr Pre-bend release
| brb Bend release bend

************************************
Tap to rate this tab
# A B C D E F G H I J K L M N O P Q R S T U V W X Y Z