Song name
# A B C D E F G H I J K L M N O P Q R S T U V W X Y Z

Tom Waits - Downtown Train tab

Downtown Train - Tom Waits

Intro/Verse: D# G# A#
Bridge: G# A#
Chorus: D# G# A# D# G# A# D# G# Fm A#

Intro:
e|-11~-----------------------------------------------|
b|---------------------------------------------------|
g|-----8h10-12-10-8-8--------------------8-12-10-8-8-|
d|---------------------------8-10-12-----------------|
a|---------------------------------------------------|
E|---------------------------------------------------|

Chorus:
b|-----------------13-11------11--11/13----------13-11--------11--11/13--------11----------------|
g|-8-----------10----------------12-------------8---------------12-----------13---13-11-11-11----|
d|-------8-12-------------------------------8-10-------------------------------------------------|
a|-----------------------------------------------------------------------------------------------|
E|-----------------------------------------------------------------------------------------------|
Tap to rate this tab
# A B C D E F G H I J K L M N O P Q R S T U V W X Y Z