Song name
# A B C D E F G H I J K L M N O P Q R S T U V W X Y Z

Tom Waits - Blue Skies tab

-----------------------------------------------------------------------------
                         Tom Waits - Blue Skies
-----------------------------------------------------------------------------
Tabbed by: Marcus Marchal (Warflojd)
E-mail: mackan_003_94@hotmail.com

Tuning: Standard
Capo: 1

Beautiful old song by Tom Waits. The chords already exist on the website so I thought
I'd take a swing at tabbing it out for you. The first three rows on each verse are pretty
much the same, except for the fourth and final row on each line ("Give me another 
woman.."). I tried to tab it out note for note, but it is not 100 percent correct obviously,
though it's pretty close I think. It's a nice song to just play around with so it 
doesn't need to be totally precise.

Intro:
e|--------------------------------3--------------------------3-----------3--2--|
B|--------------3--3--1-----1-----3-----1-----1--------1-----1-----------1--1--|
G|--------0-----0--2--0-----0--2--0--0--2--0--0--0--------0--2--2-----2--------|
D|--0--2-----------------0-----------------------------------0-----0-----------|
A|-----------------2--0-----------------0-----3-----3--------------------------|
E|-----------3--------------------3--------------------------------------------|

e|--------------2--3--|
B|--------------1--1--|
G|-----2-----2--------|
D|--0-----0-----------|
A|--------------------|
E|--------------------|



Blue skies over my head
e|--------3-----------------------------------2-----|
B|--------3-----------1-----------1-----------1-----|
G|-----0-----0--------0-----------0--------2-----2--|
D|-----------------2-----2-----2-----2--0-----------|
A|--------------0-----------3-----------------------|
E|--3-----------------------------------------------|

Give me another reason to get out of bed
e|--------3-----------------------------------2-----|
B|--------3-----------1-----------1-----------1-----|
G|-----0-----0--------0-----------0--------2-----2--|
D|-----------------2-----2-----2-----2--0-----------|
A|--------------0-----------3-----------------------|
E|--3-----------------------------------------------|

Blue skies shine on my face
e|--------3-----------------------------------2-----|
B|--------3-----------1-----------1-----------1-----|
G|-----0-----0--------0-----------0--------2-----2--|
D|-----------------2-----2-----2-----2--0-----------|
A|--------------0-----------3-----------------------|
E|--3-----------------------------------------------|

Give me another woman to take her place
e|-----------------------------------2-----3-----3--3-----3--|
B|-----------------------------1-----1-----1-----1--1-----3--|
G|--------0-----0-----0-----0--0-----2--2--0-----0--0-----0--|
D|--0--2-----0-----------------2--2--0-----------------------|
A|-----------------3-----2-----3-----------------------------|
E|-----------------------------------------3--3--------3-----|



Ain't got no money, cupboards are bare
e|--------3-----------------------------------2-----|
B|--------3-----------1-----------1-----------1-----|
G|-----0-----0--------0-----------0--------2-----2--|
D|-----------------2-----2-----2-----2--0-----------|
A|--------------0-----------3-----------------------|
E|--3-----------------------------------------------|

No cigarettes and the kids got nothing to wear
e|--------3-----------------------------------2-----|
B|--------3-----------1-----------1-----------1-----|
G|-----0-----0--------0-----------0--------2-----2--|
D|-----------------2-----2-----2-----2--0-----------|
A|--------------0-----------3-----------------------|
E|--3-----------------------------------------------|

She walked out without a word
e|--------3-----------------------------------2-----|
B|--------3-----------1-----------1-----------1-----|
G|-----0-----0--------0-----------0--------2-----2--|
D|-----------------2-----2-----2-----2--0-----------|
A|--------------0-----------3-----------------------|
E|--3-----------------------------------------------|

Now the only sound left is the morning bird singing
e|-------------------------------3-----3--3-----3-----|
B|-------------------------------1-----1--1-----3-----|
G|--------0-----0-----0-----0----0-----0--0-----0--2--|
D|--0--2-----0----------------------------------------|
A|-----------------3-----2-------------------2--------|
E|-------------------------------3--3-----------------|



Blue skies over my head
e|--------3-----------------------------------2-----|
B|--------3-----------1-----------1-----------1-----|
G|-----0-----0--------0-----------0--------2-----2--|
D|-----------------2-----2-----2-----2--0-----------|
A|--------------0-----------3-----------------------|
E|--3-----------------------------------------------|

Give me another reason to get out of bed
e|--------3-----------------------------------2-----|
B|--------3-----------1-----------1-----------1-----|
G|-----0-----0--------0-----------0--------2-----2--|
D|-----------------2-----2-----2-----2--0-----------|
A|--------------0-----------3-----------------------|
E|--3-----------------------------------------------|

Blue skies shine on my face
e|--------3-----------------------------------2-----|
B|--------3-----------1-----------1-----------1-----|
G|-----0-----0--------0-----------0--------2-----2--|
D|-----------------2-----2-----2-----2--0-----------|
A|--------------0-----------3-----------------------|
E|--3-----------------------------------------------|

Give me another woman to take her place
e|-----------------------------------2-----3-----3--3-----3--|
B|-----------------------------1-----1-----1-----1--1-----3--|
G|--------0-----0-----0-----0--0-----2--2--0-----0--0-----0--|
D|--0--2-----0-----------------2--2--0-----------------------|
A|-----------------3-----2-----3-----------------------------|
E|-----------------------------------------3--3--------3-----|



Blue skies over my head
e|--------3-----------------------------------2-----|
B|--------3-----------1-----------1-----------1-----|
G|-----0-----0--------0-----------0--------2-----2--|
D|-----------------2-----2-----2-----2--0-----------|
A|--------------0-----------3-----------------------|
E|--3-----------------------------------------------|

Give me another reason to get out of bed
e|--------3-----------------------------------2-----|
B|--------3-----------1-----------1-----------1-----|
G|-----0-----0--------0-----------0--------2-----2--|
D|-----------------2-----2-----2-----2--0-----------|
A|--------------0-----------3-----------------------|
E|--3-----------------------------------------------|

Blue skies shine on my face
e|--------3-----------------------------------2-----|
B|--------3-----------1-----------1-----------1-----|
G|-----0-----0--------0-----------0--------2-----2--|
D|-----------------2-----2-----2-----2--0-----------|
A|--------------0-----------3-----------------------|
E|--3-----------------------------------------------|

Give me another woman to take her place
e|-----------------------------------2-----3-----3--3-----3--|
B|-----------------------------1-----1-----1-----1--1-----3--|
G|--------0-----0-----0-----0--0-----2--2--0-----0--0-----0--|
D|--0--2-----0-----------------2--2--0-----------------------|
A|-----------------3-----2-----3-----------------------------|
E|-----------------------------------------3--3--------3-----|

Give me another woman to take her place
e|-----------------------------------2----|
B|-----------------------------1-----1----|
G|--------0-----0-----0-----0--0-----2--2-|
D|--0--2-----0-----------------2--2--0----|
A|-----------------3-----2-----3----------|
E|----------------------------------------|

e|------------------------------3--5/7--|
B|--1-----3---------------3--5--3-------|
G|--0-----0-------0--2/4----------------|
D|--0-----0--0p2------------------------|
A|--------------------------------------|
E|--3--3--------------------------------|
Tap to rate this tab
# A B C D E F G H I J K L M N O P Q R S T U V W X Y Z