Song name
# A B C D E F G H I J K L M N O P Q R S T U V W X Y Z

Tom Waits - A Nocturnal Emission tab

Playing pattern -- 

A B A C

E--------------------------------------------*
B--------------------------------------------*
G--------------------------------------------* 
D-----------------3---1------- 1---3---------*      A
A-------1---4-------------4------------------*
E---1----------------------------------------*

E--------------------------------------------*
B--------------------------------------------*
G--------------------------------------------*
D-----------------3---1------- --------------*    B
A-------1---4-------------4---3--------------*
E---1----------------------------------------*

E-----------------*
B-----------------*
G-----------------*
D-----------------*   C
A---4--------1----*
E--------1--------*
Tap to rate this tab
# A B C D E F G H I J K L M N O P Q R S T U V W X Y Z