Guitaretab - guitar tabs
Song name
# A B C D E F G H I J K L M N O P Q R S T U V W X Y Z

Tom Waits - Yesterdays Here tab

                          




Intro

                         0:06          0:11               0:16 
e|---0-----------------------------------------------------------------|
B|---1-----0-1-0---------------1-0------0-0--1--3---1-3/5--6-5--3-1-0--|
G|---2---2--------2-1-2---2-2~~-----2----------------------------------|
D|---2-----------------------------------------------------------------|
A|-0-0-----------------------------------------------------------------|
E|---------------------------------------------------------------------|
   a      E          a  E  a  E    aE       a  C  E     

e|--------------------------------------------------------------------|
B|-------1-1--1-1-3-0-1-1---------------------------------------------|          
G|------------------------2-2-1-2/4-2~~-------------------------------|
D|--------------------------------------------------------------------|
A|--------------------------------------------------------------------|
E|--------------------------------------------------------------------|
  a  C            D   a   a   E     a
[ Tab from: http://www.guitaretab.com/t/tom-waits/64049.html ]
              a            E                 a               E
If you want money in your pocket You want a top hat on your head
      a              C            E                         
A hot meal on your table And a blanket on your bed

Chorus
       a       C           D           a
Well today is grey skies Tomorrow is tears 
        F                 E             a
You'll have to wait till yesterday is here

Like VERSE one
I'm a going to New York City I'll be leaving on a train (a E a E )
And if you want to stay behind Till I come back again (a C E )

CHORUS
  
Bridge
     a             F    a             F
Now if you want to go Where rainbows end
        a       E      a
You'll have to say goodbye 
   a                  F       a    F  
All our dreams come true Baby up ahead
          a             D        E7
And it's out where your memories lie

Like VERSE one
And the road is out before me And the moon is shining bright
What I want you to remember As I disappear tonight

CHORUS


B|----10-10-8-------8--7----------7-6---------6-5-----910~~---|
    And today's gray skies Tomorrow's tears You'll have to wait til yesterday's here
You'll have to wait til yesterday's here
You will have to wait til yesterday's here
Related for Yesterdays Here tab