Guitaretab - guitar tabs
Song name
# A B C D E F G H I J K L M N O P Q R S T U V W X Y Z

Tomahawk - Captain Midnight tab

-------------------------------------------------------------------------------
			     Captain Midnight - Tomahawk
-------------------------------------------------------------------------------
Tabbed by: Omri Cohen
Email:i.m.bleach@gmail.com

Tuning: Standard

This is the intro/verse being played in the back by some weird synth:

A#| G | D 

The guitar sound is heavily mastered with a lot of tremolo and delay
e|---------------------------------------------------------------------------|
B|-----3~~---3~~---3~~---3~~----3~~----3~~---2~~----3~~----------------------|
G|--3~~---2~~---0~~----------0~~----5~~---3~~----2~~-------------------------|
D|--------------------3~~----------------------------------------------------|
A|---------------------------------------------------------------------------|
E|---------------------------------------------------------------------------|


"Don't be afraid" phrase end's with a D# note being sung by mike patton.

Chorus/heavy part


e|-----------------|-----------------|-----------------|-----------------|
B|-----------------|-----------------|-----------------|-----------------|
G|-----------------|-----------------|-----------------|-----------------|
D|-----------------|-----------------|-----------------|-----------------|
A|-8-8-8-8-8-8-8-8-|-8-8-8-8-8-8-8-8-|-5-5-5-5-5-5-5-5-|-3-3-3-3-3-3-3-3-|
E|-6-6-6-6-6-6-6-6-|-5-5-5-5-5-5-5-5-|-3-3-3-3-3-3-3-3-|-1-1-1-1-1-1-1-1-|
[ Tab from: http://www.guitaretab.com/t/tomahawk/110509.html ]
e|-----------------|-----------------|-----------------|-----------------|
B|-----------------|-----------------|-----------------|-----------------|
G|-----------------|-----------------|-----------------|-----------------|
D|-7-7-7-7-7-7-7-7-|-7-7-7-7-7-7-7-7-|-3-3-3-3-3-3-3-3-|-2-2-2-2-2-2-2-2-|
A|-5-5-5-5-5-5-5-5-|-3-3-3-3-3-3-3-3-|-1-1-1-1-1-1-1-1-|-0-0-0-0-0-0-0-0-|
E|-----------------|-----------------|-----------------|-----------------|

You can hear another guitar doing this bit, I know he does this live while the bass

Does the first riff
e|-------------------------|-------------------------|-----------------|-----------------|
B|-------------------------|-------------------------|-----------------|-----------------|
G|-10-10-10-10-10-10-10-10-|-10-10-10-10-10-10-10-10-|-7-7-7-7-7-7-7-7-|-7-7-7-7-7-7-7-7-|
D|-8--8--8--8--8--8--8--8--|-8-8-8--8--8--8--8--8--|-5-5-5-5-5-5-5-5-|-5-5-5-5-5-5-5-5-|
A|-8--8--8--8--8--8--8--8--|-8--8--8--8--8--8--8--8--|-5-5-5-5-5-5-5-5-|-5-5-5-5-5-5-5-5-|
E|-------------------------|-------------------------|-----------------|-----------------|

e|----------------------------------------------------|
B|-10-10-10-10-10-10-10-10-|-10-10-10-10-10-10-10-10--|
G|-7--7--7--7--7--7--7--7--|-7--7--7--7--7--7--7-7---|  X2
D|-7--7--7--7--7--7--7--7--|-7--7--7--7--7--7--7--7---|
A|----------------------------------------------------|
E|----------------------------------------------------|


Back to the Verse riff
Don't be afraid End Chord
e|-3~~----------------------------|
B|-3~~----------------------------|
G|-1~~----------------------------|
D|-1~~----------------------------|
A|--------------------------------|
E|--------------------------------|

for suggestions/questions/spam/viruses:
i.m.bleach@gmail.com
Related for Captain Midnight tab